  0
SECTION
  2
HEADER
  9
$ACADVER
  1
AC1012
  9
$DWGCODEPAGE
  3
ANSI_1252
  9
$INSBASE
 10
0.0
 20
0.0
 30
0.0
  9
$EXTMIN
 10
-72.39638
 20
-74.2553371966238
 30
0.0
  9
$EXTMAX
 10
 422.60362
 20
 205.691934769614
 30
0.0
  9
$LIMMIN
 10
-72.39638
 20
-74.2553371966238
  9
$LIMMAX
 10
 422.60362
 20
 205.691934769614
  9
$ORTHOMODE
 70
     0
  9
$REGENMODE
 70
     1
  9
$FILLMODE
 70
     1
  9
$QTEXTMODE
 70
     0
  9
$MIRRTEXT
 70
     1
  9
$DRAGMODE
 70
     2
  9
$LTSCALE
 40
1.0
  9
$OSMODE
 70
     0
  9
$ATTMODE
 70
     1
  9
$TEXTSIZE
 40
20.0
  9
$TRACEWID
 40
1.0
  9
$TEXTSTYLE
  7
STANDARD
  9
$CLAYER
  8
0
  9
$CELTYPE
  6
BYLAYER
  9
$CECOLOR
 62
   256
  9
$CELTSCALE
 40
1.0
  9
$DELOBJ
 70
     1
  9
$DISPSILH
 70
     0
  9
$DIMSCALE
 40
1.0
  9
$DIMASZ
 40
2.5
  9
$DIMEXO
 40
0.625
  9
$DIMDLI
 40
3.75
  9
$DIMRND
 40
0.0
  9
$DIMDLE
 40
0.0
  9
$DIMEXE
 40
1.25
  9
$DIMTP
 40
0.0
  9
$DIMTM
 40
0.0
  9
$DIMTXT
 40
2.5
  9
$DIMCEN
 40
2.5
  9
$DIMTSZ
 40
0.0
  9
$DIMTOL
 70
     0
  9
$DIMLIM
 70
     0
  9
$DIMTIH
 70
     0
  9
$DIMTOH
 70
     0
  9
$DIMSE1
 70
     0
  9
$DIMSE2
 70
     0
  9
$DIMTAD
 70
     1
  9
$DIMZIN
 70
     8
  9
$DIMBLK
  1

  9
$DIMASO
 70
     1
  9
$DIMSHO
 70
     1
  9
$DIMPOST
  1

  9
$DIMAPOST
  1

  9
$DIMALT
 70
     0
  9
$DIMALTD
 70
     4
  9
$DIMALTF
 40
0.0394
  9
$DIMLFAC
 40
1.0
  9
$DIMTOFL
 70
     1
  9
$DIMTVP
 40
0.0
  9
$DIMTIX
 70
     0
  9
$DIMSOXD
 70
     0
  9
$DIMSAH
 70
     0
  9
$DIMBLK1
  1

  9
$DIMBLK2
  1

  9
$DIMSTYLE
  2
STANDARD
  9
$DIMCLRD
 70
     0
  9
$DIMCLRE
 70
     0
  9
$DIMCLRT
 70
     0
  9
$DIMTFAC
 40
1.0
  9
$DIMGAP
 40
0.625
  9
$DIMJUST
 70
     0
  9
$DIMSD1
 70
     0
  9
$DIMSD2
 70
     0
  9
$DIMTOLJ
 70
     1
  9
$DIMTZIN
 70
     0
  9
$DIMALTZ
 70
     0
  9
$DIMALTTZ
 70
     0
  9
$DIMFIT
 70
     3
  9
$DIMUPT
 70
     0
  9
$DIMUNIT
 70
     8
  9
$DIMDEC
 70
     4
  9
$DIMTDEC
 70
     4
  9
$DIMALTU
 70
     8
  9
$DIMALTTD
 70
     4
  9
$DIMTXSTY
  7
STANDARD
  9
$DIMAUNIT
 70
     0
  9
$LUNITS
 70
     2
  9
$LUPREC
 70
     4
  9
$SKETCHINC
 40
1.0
  9
$FILLETRAD
 40
10.0
  9
$AUNITS
 70
     0
  9
$AUPREC
 70
     0
  9
$MENU
  1
acad
  9
$ELEVATION
 40
0.0
  9
$PELEVATION
 40
0.0
  9
$THICKNESS
 40
0.0
  9
$LIMCHECK
 70
     0
  9
$BLIPMODE
 70
     0
  9
$CHAMFERA
 40
10.0
  9
$CHAMFERB
 40
10.0
  9
$CHAMFERC
 40
20.0
  9
$CHAMFERD
 40
0.0
  9
$SKPOLY
 70
     0
  9
$TDCREATE
 40
2451873.740232176
  9
$TDUPDATE
 40
2451873.740232176
  9
$TDINDWG
 40
0.0000000000
  9
$TDUSRTIMER
 40
0.0000000000
  9
$USRTIMER
 70
     1
  9
$ANGBASE
 50
0.0
  9
$ANGDIR
 70
     0
  9
$PDMODE
 70
     0
  9
$PDSIZE
 40
0.0
  9
$PLINEWID
 40
0.0
  9
$COORDS
 70
     1
  9
$SPLFRAME
 70
     0
  9
$SPLINETYPE
 70
     6
  9
$SPLINESEGS
 70
     8
  9
$ATTDIA
 70
     0
  9
$ATTREQ
 70
     1
  9
$HANDLING
 70
     1
  9
$HANDSEED
  5
 71
  9
$SURFTAB1
 70
     6
  9
$SURFTAB2
 70
     6
  9
$SURFTYPE
 70
     6
  9
$SURFU
 70
     6
  9
$SURFV
 70
     6
  9
$UCSNAME
  2

  9
$UCSORG
 10
0.0
 20
0.0
 30
0.0
  9
$UCSXDIR
 10
1.0
 20
0.0
 30
0.0
  9
$UCSYDIR
 10
0.0
 20
1.0
 30
0.0
  9
$PUCSNAME
  2

  9
$PUCSORG
 10
0.0
 20
0.0
 30
0.0
  9
$PUCSXDIR
 10
1.0
 20
0.0
 30
0.0
  9
$PUCSYDIR
 10
0.0
 20
1.0
 30
0.0
  9
$USERI1
 70
     0
  9
$USERI2
 70
     0
  9
$USERI3
 70
     0
  9
$USERI4
 70
     0
  9
$USERI5
 70
     0
  9
$USERR1
 40
0.0
  9
$USERR2
 40
0.0
  9
$USERR3
 40
0.0
  9
$USERR4
 40
0.0
  9
$USERR5
 40
0.0
  9
$WORLDVIEW
 70
     1
  9
$SHADEDGE
 70
     3
  9
$SHADEDIF
 70
    70
  9
$TILEMODE
 70
     1
  9
$MAXACTVP
 70
    48
  9
$PINSBASE
 10
0.0
 20
0.0
 30
0.0
  9
$PLIMCHECK
 70
     0
  9
$PEXTMIN
 10
1.000000E+20
 20
1.000000E+20
 30
1.000000E+20
  9
$PEXTMAX
 10
-1.000000E+20
 20
-1.000000E+20
 30
-1.000000E+20
  9
$PLIMMIN
 10
0.0
 20
0.0
  9
$PLIMMAX
 10
420.0
 20
297.0
  9
$UNITMODE
 70
     0
  9
$VISRETAIN
 70
     1
  9
$PLINEGEN
 70
     0
  9
$PSLTSCALE
 70
     1
  9
$TREEDEPTH
 70
  3020
  9
$PICKSTYLE
 70
     1
  9
$CMLSTYLE
  2
STANDARD
  9
$CMLJUST
 70
     0
  9
$CMLSCALE
 40
20.0
  9
$SAVEIMAGES
 70
     1
  0
ENDSEC
  0
SECTION
  2
CLASSES
  0
ENDSEC
  0
SECTION
  2
TABLES
  0
TABLE
  2
VPORT
  5
1
100
AcDbSymbolTable
 70
     2
  0
VPORT
  5
2
100
AcDbSymbolTableRecord
100
AcDbViewportTableRecord
  2
*ACTIVE
 70
     0
 10
0.0
 20
0.0
 11
1.0
 21
1.0
 12
226.4625
 22
148.5
 13
0.0
 23
0.0
 14
10.0
 24
10.0
 15
10.0
 25
10.0
 16
0.0
 26
0.0
 36
1.0
 17
0.0
 27
0.0
 37
0.0
 40
297.0
 41
1.525
 42
50.0
 43
0.0
 44
0.0
 50
0.0
 51
0.0
 71
     0
 72
   100
 73
     1
 74
     1
 75
     0
 76
     0
 77
     0
 78
     0
  0
ENDTAB
  0
TABLE
  2
LTYPE
  5
3
100
AcDbSymbolTable
 70
     1
  0
LTYPE
  5
4
100
AcDbSymbolTableRecord
100
AcDbLinetypeTableRecord
  2
BYBLOCK
 70
     0
  3

 72
    65
 73
     0
 40
0.0
  0
LTYPE
  5
5
100
AcDbSymbolTableRecord
100
AcDbLinetypeTableRecord
  2
BYLAYER
 70
     0
  3

 72
    65
 73
     0
 40
0.0
  0
LTYPE
  5
6
100
AcDbSymbolTableRecord
100
AcDbLinetypeTableRecord
  2
CONTINUOUS
 70
     0
  3
SOLID LINE
 72
    65
 73
     0
 40
0.0
  0
LTYPE
  5
7
100
AcDbSymbolTableRecord
100
AcDbLinetypeTableRecord
  2
CONTINUOUS1
 70
     0
  3
SOLID LINE
 72
    65
 73
     0
 40
0.0
  0
LTYPE
  5
8
100
AcDbSymbolTableRecord
100
AcDbLinetypeTableRecord
  2
CONTINUOUS2
 70
     0
  3
SOLID LINE
 72
    65
 73
     0
 40
0.0
  0
LTYPE
  5
9
100
AcDbSymbolTableRecord
100
AcDbLinetypeTableRecord
  2
DASHED
 70
     0
  3
__ __ __ __ __ __ __ __ __ __ __ __ __ __ __
 72
    65
 73
     2
 40
0.75
 49
0.5
 74
     0
 49
-0.25
 74
     0
  0
LTYPE
  5
10
100
AcDbSymbolTableRecord
100
AcDbLinetypeTableRecord
  2
DASHED2
 70
     0
  3
_ _ _ _ _ _ _ _ _ _ _ _ _ _ _ _ _ _ _ _ _ _ _ _
 72
    65
 73
     2
 40
0.375
 49
0.25
 74
     0
 49
-0.125
 74
     0
  0
LTYPE
  5
11
100
AcDbSymbolTableRecord
100
AcDbLinetypeTableRecord
  2
BORDER2
 70
     0
  3
___ _ ___ _ ___ _ ___ _ ___ _ ___ _ ___ _ ___ _
 72
    65
 73
     4
 40
1.125
 49
0.75
 74
     0
 49
-0.125
 74
     0
 49
0.125
 74
     0
 49
-0.125
 74
     0
  0
LTYPE
  5
12
100
AcDbSymbolTableRecord
100
AcDbLinetypeTableRecord
  2
DIVIDE
 70
     0
  3
_____ _ _ _____ _ _ _____ _ _ _____ _ _ ____
 72
    65
 73
     6
 40
2.5
 49
1.25
 74
     0
 49
-0.25
 74
     0
 49
0.25
 74
     0
 49
-0.25
 74
     0
 49
0.25
 74
     0
 49
-0.25
 74
     0
  0
ENDTAB
  0
TABLE
  2
LAYER
  5
13
100
AcDbSymbolTable
 70
     2
  0
LAYER
 5
 37
100
AcDbSymbolTableRecord
100
AcDbLayerTableRecord
 2
0
 70
   0
 62
7
 6
CONTINUOUS
  0
LAYER
 5
 38
100
AcDbSymbolTableRecord
100
AcDbLayerTableRecord
 2
Schneiden_Uhrzeiger
 70
   0
 62
0
 6
CONTINUOUS
  0
ENDTAB
  0
TABLE
  2
VIEW
  5
16
100
AcDbSymbolTable
 70
     0
  0
ENDTAB
  0
TABLE
  2
UCS
  5
17
100
AcDbSymbolTable
 70
     0
  0
ENDTAB
  0
TABLE
  2
APPID
  5
18
100
AcDbSymbolTable
 70
     1
  0
APPID
  5
19
100
AcDbSymbolTableRecord
100
AcDbRegAppTableRecord
  2
ACAD
 70
     0
  0
ENDTAB
  0
TABLE
  2
DIMSTYLE
  5
20
100
AcDbSymbolTable
 70
     1
  0
DIMSTYLE
105
36
102
{ACAD_REACTORS
330
3D
102
}
100
AcDbSymbolTableRecord
100
AcDbDimStyleTableRecord
  2
STANDARD
 70
     0
  3

  4

  5

  6

  7

 40
1.0
 41
 .549301452742807
 42
 .170603612966785
 43
0.38
 44
 .568678709889282
 45
0.0
 46
0.0
 47
0.0
 48
0.0
140
 .669033776340332
141
0.09
142
0.0
143
25.4
144
1.0
145
0.0
146
1.0
147
 .142169677472321
 71
     0
 72
     0
 73
     1
 74
     1
 75
     0
 76
     0
 77
     0
 78
     0
170
     0
171
     2
172
     0
173
     0
174
     0
175
     0
176
5
177
5
178
7
179
 2
340
Bemassung
270
     2
271
     4
272
     4
273
     2
274
     2
275
     0
280
     0
281
     0
282
     0
283
     1
284
     0
285
     0
286
     0
287
     3
288
     0
  0
ENDTAB
  0
TABLE
  2
BLOCK_RECORD
  5
33
100
AcDbSymbolTable
 70
     1
  0
BLOCK_RECORD
  5
34
100
AcDbSymbolTableRecord
100
AcDbBlockTableRecord
  2
*MODEL_SPACE
  0
BLOCK_RECORD
  5
35
100
AcDbSymbolTableRecord
100
AcDbBlockTableRecord
  2
*PAPER_SPACE
  0
ENDTAB
  0
TABLE
  2
STYLE
 5
 39
100
AcDbSymbolTable
 70
 1
 0
STYLE
 5
 40
100
AcDbSymbolTableRecord
100
AcDbTextStyleTableRecord
 2
Standard
 70
   0
 40
 10 
 41
1.0
 50
0.0
 71
   0
 42
 10
 3

 4

1001
ACAD
1000
Arial
1071
 18
  0
STYLE
 5
 41
100
AcDbSymbolTableRecord
100
AcDbTextStyleTableRecord
 2
Bemassung
 70
   0
 40
 10 
 41
1.0
 50
0.0
 71
   0
 42
 10
 3

 4

1001
ACAD
1000
Arial
1071
 18
  0
ENDTAB
  0
ENDSEC
  0
SECTION
  2
BLOCKS
  0
BLOCK
  5
25
100
AcDbEntity
  8
0
100
AcDbBlockBegin
  2
*MODEL_SPACE
 70
     0
 10
0.0
 20
0.0
 30
0.0
  3
*MODEL_SPACE
  1

  0
ENDBLK
  5
26
100
AcDbEntity
  8
0
100
AcDbBlockEnd
  0
BLOCK
  5
27
100
AcDbEntity
 67
     1
  8
0
100
AcDbBlockBegin
  2
*PAPER_SPACE
 70
     0
 10
0.0
 20
0.0
 30
0.0
  3
*PAPER_SPACE
  1

  0
ENDBLK
  5
28
100
AcDbEntity
 67
     1
  8
0
100
AcDbBlockEnd
  0
ENDSEC
  0
SECTION
  2
ENTITIES
  0
CIRCLE
 5
 42
100
AcDbEntity
  8
Schneiden_Uhrzeiger
100
AcDbCircle
 62
7
  6
CONTINUOUS
 10
 230.099588337944
 20
-49.3080339748219
 40
 5.40356468832028
  0
CIRCLE
 5
 43
100
AcDbEntity
  8
Schneiden_Uhrzeiger
100
AcDbCircle
 62
7
  6
CONTINUOUS
 10
 175.095161103125
 20
 15.2498330195717
 40
 7.51205280336314
  0
CIRCLE
 5
 44
100
AcDbEntity
  8
Schneiden_Uhrzeiger
100
AcDbCircle
 62
7
  6
CONTINUOUS
 10
 253.245161103127
 20
 150.609633019572
 40
 7.51205280336331
  0
CIRCLE
 5
 45
100
AcDbEntity
  8
Schneiden_Uhrzeiger
100
AcDbCircle
 62
7
  6
CONTINUOUS
 10
 250.100030477514
 20
 195.690687590161
 40
 5.0094421192344
  0
CIRCLE
 5
 46
100
AcDbEntity
  8
Schneiden_Uhrzeiger
100
AcDbCircle
 62
7
  6
CONTINUOUS
 10
 100.100030477514
 20
 195.690687590161
 40
 5.0094421192344
  0
CIRCLE
 5
 47
100
AcDbEntity
  8
Schneiden_Uhrzeiger
100
AcDbCircle
 62
7
  6
CONTINUOUS
 10
 96.9451611031264
 20
 150.609633019572
 40
 7.51205280336331
  0
CIRCLE
 5
 48
100
AcDbEntity
  8
Schneiden_Uhrzeiger
100
AcDbCircle
 62
7
  6
CONTINUOUS
 10
 175.077174567611
 20
 105.691283243164
 40
 40.0887842333053
  0
CIRCLE
 5
 49
100
AcDbEntity
  8
Schneiden_Uhrzeiger
100
AcDbCircle
 62
7
  6
CONTINUOUS
 10
 120.099488337944
 20
-49.3080339748219
 40
 5.40356468832025
  0
ARC
 5
 50
100
AcDbEntity
  8
Schneiden_Uhrzeiger
100
AcDbCircle
 62
7
  6
CONTINUOUS
 10
 382.616690931526
 20
-47.0745983495724
 40
 17.6760534566715
100
AcDbArc
 50
 319.771289225546
 51
 359.946042034415
  0
ARC
 5
 51
100
AcDbEntity
  8
Schneiden_Uhrzeiger
100
AcDbCircle
 62
7
  6
CONTINUOUS
 10
 382.654952860086
 20
-46.8064867000335
 40
 17.8214754264612
100
AcDbArc
 50
 185.79319311084
 51
 319.033729461554
  0
ARC
 5
 52
100
AcDbEntity
  8
Schneiden_Uhrzeiger
100
AcDbCircle
 62
7
  6
CONTINUOUS
 10
-32.2904404555046
 20
-47.0745983511119
 40
 17.6760534557003
100
AcDbArc
 50
 319.77128922942
 51
 359.946042039387
  0
ARC
 5
 53
100
AcDbEntity
  8
Schneiden_Uhrzeiger
100
AcDbCircle
 62
7
  6
CONTINUOUS
 10
-32.2521785283309
 20
-46.8064867000335
 40
 17.8214754264612
100
AcDbArc
 50
 185.79319311084
 51
 319.033729461554
  0
LINE
 5
 54
100
AcDbEntity
  8
Schneiden_Uhrzeiger
100
AcDbLine
 62
7
  6
CONTINUOUS
 10
 422.597703370712
 20
-24.3080652303859
 11
 422.60362
 21
-74.2553371383112
  0
LINE
 5
 55
100
AcDbEntity
  8
Schneiden_Uhrzeiger
100
AcDbLine
 62
7
  6
CONTINUOUS
 10
 400.30362
 20
-24.3080652303859
 11
 422.597703370712
 21
-24.3080652303859
  0
LINE
 5
 56
100
AcDbEntity
  8
Schneiden_Uhrzeiger
100
AcDbLine
 62
7
  6
CONTINUOUS
 10
 400.292736535573
 20
-47.0912444901122
 11
 400.30362
 21
-24.3080652303859
  0
LINE
 5
 57
100
AcDbEntity
  8
Schneiden_Uhrzeiger
100
AcDbLine
 62
7
  6
CONTINUOUS
 10
 364.810751388417
 20
-24.3080652303859
 11
 364.924496928995
 21
-48.6053528067664
  0
LINE
 5
 58
100
AcDbEntity
  8
Schneiden_Uhrzeiger
100
AcDbLine
 62
7
  6
CONTINUOUS
 10
 364.810751388417
 20
-24.3080652303859
 11
 342.60362
 21
-24.3080652303859
  0
LINE
 5
 59
100
AcDbEntity
  8
Schneiden_Uhrzeiger
100
AcDbLine
 62
7
  6
CONTINUOUS
 10
 342.60362
 20
-24.3080652303859
 11
 275.53991258675
 21
 50.20705483601
  0
LINE
 5
 60
100
AcDbEntity
  8
Schneiden_Uhrzeiger
100
AcDbLine
 62
7
  6
CONTINUOUS
 10
 275.103520105456
 20
 50.8553918550455
 11
 275.53991258675
 21
 50.20705483601
  0
LINE
 5
 61
100
AcDbEntity
  8
Schneiden_Uhrzeiger
100
AcDbLine
 62
7
  6
CONTINUOUS
 10
 275.050556061312
 20
 205.691934769614
 11
 275.103520105456
 21
 50.8553918550455
  0
LINE
 5
 62
100
AcDbEntity
  8
Schneiden_Uhrzeiger
100
AcDbLine
 62
7
  6
CONTINUOUS
 10
 75.1036199999999
 20
 205.691934769614
 11
 275.050556061312
 21
 205.691934769614
  0
LINE
 5
 63
100
AcDbEntity
  8
Schneiden_Uhrzeiger
100
AcDbLine
 62
7
  6
CONTINUOUS
 10
 75.103520026532
 20
 50.7330592769007
 11
 75.1036199999999
 21
 205.691934769614
  0
LINE
 5
 64
100
AcDbEntity
  8
Schneiden_Uhrzeiger
100
AcDbLine
 62
7
  6
CONTINUOUS
 10
 75.103520026532
 20
 50.7330592769007
 11
 7.60391203805213
 21
-24.307837751061
  0
LINE
 5
 65
100
AcDbEntity
  8
Schneiden_Uhrzeiger
100
AcDbLine
 62
7
  6
CONTINUOUS
 10
-14.6035113884174
 20
-24.3080652303859
 11
 7.60391203805213
 21
-24.307837751061
  0
LINE
 5
 66
100
AcDbEntity
  8
Schneiden_Uhrzeiger
100
AcDbLine
 62
7
  6
CONTINUOUS
 10
-14.6143948528446
 20
-47.0912444901122
 11
-14.6035113884174
 21
-24.3080652303859
  0
LINE
 5
 67
100
AcDbEntity
  8
Schneiden_Uhrzeiger
100
AcDbLine
 62
7
  6
CONTINUOUS
 10
-50.0963800000001
 20
-24.3080652303859
 11
-49.9826344594225
 21
-48.6053528067664
  0
LINE
 5
 68
100
AcDbEntity
  8
Schneiden_Uhrzeiger
100
AcDbLine
 62
7
  6
CONTINUOUS
 10
-72.3904633838413
 20
-24.3080652303859
 11
-50.0963800000001
 21
-24.3080652303859
  0
LINE
 5
 69
100
AcDbEntity
  8
Schneiden_Uhrzeiger
100
AcDbLine
 62
7
  6
CONTINUOUS
 10
-72.39638
 20
-74.2553371966238
 11
-72.3904633838413
 21
-24.3080652303859
  0
LINE
 5
 70
100
AcDbEntity
  8
Schneiden_Uhrzeiger
100
AcDbLine
 62
7
  6
CONTINUOUS
 10
 422.60362
 20
-74.2553371383112
 11
-72.39638
 21
-74.2553371966238
  0
ENDSEC
  0
SECTION
  2
OBJECTS
  0
DICTIONARY
  5
21
100
AcDbDictionary
  3
ACAD_GROUP
350
22
  3
ACAD_MLINESTYLE
350
23
  0
DICTIONARY
  5
22
102
{ACAD_REACTORS
330
21
102
}
100
AcDbDictionary
  0
DICTIONARY
  5
23
102
{ACAD_REACTORS
330
21
102
}
100
AcDbDictionary
  3
STANDARD
350
24
  0
MLINESTYLE
  5
24
102
{ACAD_REACTORS
330
23
102
}
100
AcDbMlineStyle
  2
STANDARD
 70
     0
  3

 62
   256
 51
90.0
 52
90.0
 71
     2
 49
0.5
 62
   256
  6
BYLAYER
 49
-0.5
 62
   256
  6
BYLAYER
  0
ENDSEC
  0
EOF
